- - -
thế bấm
e|---------------------------------------------------------|
b|---------------------------------------------------------|
g|-----------0--------------0h2-0------------------------2-|
D|-----0-1/2---0-h1p0---0---------2-1-0-h1p0---0---0-------|
A|-0h3----------------3---3------------------3---3---3-0---|
E|---------------------------------------------------------|
e|-2--2------------------2-|--------------------|
b|-2--2------------------2-|--------------------|
g|-2--2------------------2-|--------------------|
D|-4--4------------------4-|-0-2-2h4-2--2h4p2-0-|
A|-4--4------------------4-|--------------------|
E|-x--x---------2----2---x-|--------------------|

(Verse)
[A]Hello there, [E]my old friend
[F#m]Not so long ago, it was [D]'till the end
[A]We played out side, in the [E]pourin' rain
[F#m]On our way up the road, [D]we started over again

(Chorus)
[F#m]Livin' the dream, of [D]you on [E]top
[F#m]My mind is achin', [D]and lord [E]it wont stop
[F#m]That's how it's [D7]happened, livin' [E]Life by the [A]drop

(Verse)
[A]Up and down that road, in our [E]worn out shoes
[F#m]Talkin' 'bout good things, and [D]singin' the blues
[A]You went your way, and [E]I stayed behind
[F#m]We both knew, it was just a [D]matter of time

(Chorus)
[A]No waste of time, we're [E]allowed today
[F#m]Churnin' up the past, there's [D]no easier way
[A]Times been between us, a means[E] to an end
[F#m]God, It's good to be here, walkin' [D7]together my friend

(Bridge)
[F#m]Livin' the dream! [D]
[F#m]My mind stoped achin'! [D]
[F#m]That's how it's [D7]happened, livin' [E]Life by the [A]drop
[F#m]That's how it's [D7]happened, livin' [E]Life by the [A]drop

************************************
| x Dead note
| h Hammer-on
| p Pull-off
| / Slide up
************************************
Share nếu hay!

Hợp âm liên quan

Bình luận