- - -
thế bấm
(Intro)
E----------------------10/12-10-12---------12-10-------------------|
B---------8--8-10/12--8----------------8-10------12-10-------------|
G------------------------------------------------------12--11-12-~-|
D---------------------------------------------------------------12-|
A------------------------------------------------------------------|
E------------------------------------------------------------------|


E----------------------------------|
B------------10-12/13-12--10-----~-|
G---11-12-~-12----------12---------|
D--------11------------------------|
A----------------------------------|
E----------------------------------|
[G]i'll hold the [Bm]door
please come [Em]in and just [Dm]sit here [G7]for a [C]while
this is [Bm]my way of [A]telling you i need [D7]you in my [G]life
it's so [Bm]cold without your [Em]touch
i've been [Dm]dreaming [G7]way too [C]much
can we [Bm]just turn this [A]into [D7]reality

(Chorus)
cuz [G]ive been thinking bout you [D]lately
maybe you can [Em]save me from this [Cm]crazy world we [G]live in
I know we could [D]happen cuz you know
that [Em]ive been feeling [Cm]you.

(Verse 2)
[G]storms they will [Bm]come but i [Em]know
that the [Dm]sun will [G7]shine [C]again
he's my [Bm]friend and he [A]says that we [D7]belong together
[G]i'll sing a [Bm]song to break the [Em]ice
just a [Dm]smile from you [G7]would [C]suffice
its not [Bm]me being [A]nice girl this is [D7]real tonight

(Chorus)
cuz [G]ive been thinking bout you [D]lately
maybe you can [Em]save me from this [Cm]crazy world we [G]live in
I know we could [D]happen cuz you know
that [Em]ive been feeling [Cm]you.

(Bridge)
[Em]there's no [Bm7]other, [G]there's no other [A]love
[Em]that I'd [Bm7]rather [G]have... [A]no.
[Em]there ain't [Bm7]no one [G]there ain't no one [A]else
[C]i want you for [A]myself.

(Chorus)
(no strumming until world for the first time)
cuz [G]ive been thinking bout you [D]lately
maybe you can [Em]save me from this [Cm]crazy world we [G]live in
I know we could [D]happen cuz you know
that [Em]ive been feeling [Cm]you.
cuz [G]ive been thinking bout you [D]lately
maybe you can [Em]save me from this [Cm]crazy world we [G]live in
I know we could [D]happen cuz you know
that [Em]ive been feeling [Cm]you.
(Outtro)
E----------------------10/12-10-12---------12-10-------------------|
B---------8--8-10/12--8----------------8-10------12-10-------------|
G------------------------------------------------------12--11-12-~-|
D---------------------------------------------------------------12-|
A------------------------------------------------------------------|
E------------------------------------------------------------------|

E--------------------------------------------15-14-12--------------|
B----------10-12/13-12--10------15-15---12-15--------15-12/15-12-10|
G-11-12-~-12----------12--12---------------------------------------|
D------11----------------------------------------------------------|
A------------------------------------------------------------------|
E------------------------------------------------------------------|


E----------------------------------------------------------------|
B-------------------------------0--------------------------------|
G-12-11-12~--11-12-0------12----0--------------------------------|
D---------12-------11-----0-----0--------------------------------|
A----------------------------------------------------------------|
E----------------------------------------------------------------|
Share nếu hay!

Hợp âm liên quan

Bình luận